Ratcat

Tablature Proudly by: Dave Carr of Western Australia (davo_carr@hotmail.com)
Original Copyright MMA Music, Intended for private study & enjoyment.
The Guitars Simon Day Plays.

Ratcat

  1. Timb Bomb (of hate)
  2. I Think We're Alone Now
  3. She's Gone

This Nightmare

  1. True Lust
  2. The Killing Joke
  3. If I Said
  4. Feels So Good

Blind Love

  1. Yes I Wanna Go
  2. Baby Baby
  3. Hopeless Mind
  4. That Aint Bad
  5. Don't Go Now
  6. The End

Insideout

  1. Never Really There
  2. Candyman
  3. Love No More
  4. Chasing
  5. Holiday
  6. Sick Of Being Down
  7. The World
  8. Dead

EasyRider

  1. Never Give It Up
  2. May You Ever
  3. Easy Rider
  4. Elvis With A Kite
  5. Baby Come Back
  6. Bucket
  7. Into The Light

Singles/Ep/Rare

  1. Razor Blades
  2. I Think I Love You
  3. Skin
  4. Another Planet
  5. Rain
  6. All This Talk
  7. Don't Go In The Water
  8. Tingles
  9. OverDrive
  10. Saying Goodbye
  11. I Hate The Music
  12. Blame
  13. Soft As Velvet
  14. Getting Away (From This World)

Simon Day Plays

6120 Gretsch Rickenbacker

6120 GRETSCH 1964-68 CHET ATKINS NASHVILLE, Orange, Bigsby, Hollowbody.
360/12 RICKENBACKER, Deluxe thinline, semi-acoustic hollow body, inlaid neck, wired for stereo.


Time Bomb


Now for this little ditty, the way Simon plays it (IMHO) is from the 7th 
fret B, then up to the 9th fret F# (A shape), then the 7th fret E (A 
shape).  

Time Bomb (of Hate)
(Ratcat)

(Intro)	B  F#  E  F#    x 2     

(V1)	        B          F#          E
	Did you check the wires to the time bomb in my heart
		 B        F# E               F#
	It's all set to go into a brand new start
	            B         F#     E               F#
	The clock's ticking now, the time's about to come
	     B          F#          E               F#
	When all will change, these feelings I have found


(CH1) D  F#                 G           D
           Let me tell you now, I'm in love
	F#                         G                   D  A  G  A  D  A  G
	   And it's you I've been dreaming of for too long


(V2)	Nothing that you say or do is gonna make me change the way
	The way that I feel about you
	Nothing that is on my mind is gonna make me change this feeling
	That our love is of a deadly kind

(CH2)	(Time bomb of hate) Let me tell you now, it was true romance
	And it's you who's enhancing my state of mind

(Solo)   E|-2--2--0-----0-----------------------
         B|----------4-----4--2--0--2--0--4--0--
         G|-------------------------------------
         D|-------------------------------------
         A|-------------------------------------
         E|-------------------------------------

         E|-2--2--0-----0--------------------4--2-
         B|----------4-----4--2--0--2--0--4-------
         G|---------------------------------------
         D|---------------------------------------
         A|---------------------------------------
         E|---------------------------------------



        D  F#  G  D  F#                        G(barred, 3rd fret)        
                    E|---------------------------------------------------
                    B|-------2--------2-----2--------3--------3-----3----
                    G|---------------------------------------------------
                    D|-4--4-----4--4-----4-----5--5-----5--5-----5-----5-
                    A|---------------------------------------------------
                    E|---------------------------------------------------

        D  A  G  A  D  A  G

[Verse1] (end with..) these feelings that I've found

[Chorus2]

(End)	    D                A           G
	She told me that she loved me you know
		A        D   A   G
	I think that she lied
       A          D                A   G
	You could tell that she just hated me
		  A   D    A  G  A  B
	It was in her eyes          Oh well.....

---

I Think We're Alone Now


I Think We're Alone Now
(Ratcat)

(Intro)	A  E  D  A

(V1)	A          E    D                 A
	Children behave, that's what they say when we're together
	A                  E    D                A
	And watch how they play, they don't understand - and so we're

(Br)	E			   A
	Running just as fast as we can
	E			   A
	Holding onto one another's hands
	D
	Trying to get away into the night
		     B
	And then you put your arms around me

	As we tumble to the ground and then you say

(Ch)	A               E       D
	I think we're alone now
			      A
	There doesn't seem to be anyone around
	A               E       D
	I think we're alone now
				         A
	The beating of our hearts is the only sound


(V2)	Look at the way we've gotta hide what we're doing
	Cos what would they say if they ever knew, and so we're...

[Bridge]

[Chorus]....(repeat)

---

She's Gone


SHE'S GONE
(Ratcat)

(Intro)	E  B  A  B   x 4

  (High E string-->)-5--4--2--5--4--2--5--4--2--5--4--2--5--4--2--0

(V1)	E    			B
	Kitty, kitty, I love you
	A				  B
	And you know to you I will be true
	E					    B
	I look forward to the times when we can play
	A  			   B
	When she bites and claws me

(V2)	Oh my kitty, she went out to play
	But that was yesterday
	She went out to the garden for a while
	And she never came back

(CH)	B     E	    B     A     B     E     B     A
	She's gone  She's gone  She's gone  She's gone
			 B  E...
	And I'm all alone

(V3)	Kitty, kitty
	For her I fear the worst
	I dread to think just what could have
	Happened to her

(V4)	I've looked all over
	But nowhere can I find
	Hide nor hair of that
	Pussycat of mine

[Chorus]

(Solo)	
E|-------------------------------------------------------------
B|----------------------------------0--0--2.2.2--0-------------
G|----1--2--1-----1--2--1--2--1--2------------------2--2--1----
D|-2-----------2---------------------------------------------2-
A|-------------------------------------------------------------
E|-------------------------------------------------------------

E|-------------------------------------------0--4--5--4--0--4--
B|-------------------------------0--0--2--4--------------------
G|-1--2--1-----1--2--1--2--1--2--------------------------------
D|----------2--------------------------------------------------
A|-------------------------------------------------------------
E|-------------------------------------------------------------

E|-5--4--0--4--5--4--0--4--5--4--5--7.7--9.9.9--7--5--4--5--4--2-
B|---------------------------------------------------------------
G|---------------------------------------------------------------
D|---------------------------------------------------------------
A|---------------------------------------------------------------
E|---------------------------------------------------------------

E|-0--4--5--4--0--4--5--4--0--4--5--4--0--4--5--4--5--7.7--5-
B|-----------------------------------------------------------
G|-----------------------------------------------------------
D|-----------------------------------------------------------
A|-----------------------------------------------------------
E|-----------------------------------------------------------

E|-----------------------------------0--0-----0--0-----0-------
B|-4/5/4--0-----------0--4--0--4--0--------4--------4-----4--0-
G|-----------2--1--2-------------------------------------------
D|-------------------------------------------------------------
A|-------------------------------------------------------------
E|-------------------------------------------------------------

E|---------------------------
B|---------------------------
G|-2--1----------------------
D|-------4--2----------------
A|-------------4--2--4--2--0-
E|---------------------------

(V4) 	I'm so lonely (she could've got hit by a car)
	I'm so lonely (she could've been killed by a dog)
	I'm so lonely (but then maybe she's just out chasing rats)
	My pussycat ran away

[Chorus]

---


True Lust


True Lust 
(This Nightmare)

(V1)    A
           I met her at the kindergarten
        F#m
           She wore her hair in pigtails
        A
           She had teeth like a rabbit
        F#m
           And, you know, she loved to eat snails	

(CH)           D
	It was true 
                              E          A
	I've never felt these feelings before her

(Riff) E|-------------------------------------------------
       B|-------------------------------------------------
       G|-------------------------------------------------  x 2
       D|------2--2-----2--2--0---------------------------
       A|-0--0-------0-----------4-------4--------4--2----
       E|---------------------------2--2----2--2--------4-

       E|-------------------------------------0---
       B|-------------------------------0---------
       G|-------2-----------2--4------------------
       D|-0--0-----0--0--0--------2--2-----2------
       A|-----------------------------------------
       E|-----------------------------------------

(V2)  We would play in the dirt together
      We would trade bugs all of the time
      One day I gave her a spider 
      She said she would be mine

[Chorus]

(Mid)  D
        She was great on the jungle gym
       A
        There ain't no tree she can't climb
       D
        She was great at everything
       E
        And she was mi-i-ine

(V3)    There ain't no happy ending
        When my baby doll moved away
        My heart was filled with sorrow
        Who with was I to play

[Chorus]...without/before(?) her
---

The Killing Joke


The Killing Joke
(This Nightmare)

(Bass: A  D  E  D)

(Intro)	E|-------0-----------------2-----------------0-----------
        B|----2-----2-----------3-----3-----------0-----0--------
        G|----2--------2--------2--------2--------1--------1-----
        D|----2-----------2--0--------------0-----2-----------2--
        A|-0--------------------------------------2--------------
        E|-------------------------------------0-----------------

        E|-------2-----------------
        B|-------------2-----0-----
        G|----2-----2-----2-----2--  X 2 (everything)
        D|-0-----------------------
        A|-------------------------
        E|-------------------------


(V1)    A        D            E    D
        Cindy is flying in the sky
	A             D            E       D
        She says that she won't go too high
        A         D               E      D
        But I can see the path of her flight
        A              D            E     D
	She wishes she may, I know she might

(CH)	A           D                E         D
        She's dying, I'm crying it's all up to you
	A         D                  E          D   [Intro]
        I'm hoping she's joking, the joke's on you


(V2)    Cindy, she rides the train
        She says that she enjoys the pain
        And when she flies in me it burns my eyes
        I hope she holds on to her life

[Chorus]

[Intro]


(V3)    Cindy she loves to hit the nail
        She says that her hit never fails
        She always said she had a lust for life
        Sometimes I think she wants to die

[Chorus]

[Intro] .. doo  do  do ...ahhhh   

[Chorus]  (end on A chord)
---

IF I SAID


IF I SAID (THIS NIGHTMARE)

(V1)	C
	I don't know what to make of you
				       F
	You don't know what you put me through
	C
	I don't know what to say or do
				    F               C
	I don't wanna be touched by you, touched by you

(CH1)	G
	If I said a thousand words
	     F				     C
	Then all at once you take my breath away

(V2)	You don't know what you've done to me
	I can't make you what you want to be
	You don't know what I'm trying to say
	I can't tell you in this way, in this way

[Chorus1]

(CH2)	If I said a thousand times
	The same old lines, you take my breath away

(SOLO)
       e|----0.0-----0-----0--3--0-----3--0-----3--0-----3--0-----0----0-
       B|-3-------3-----3-----------3--------3--------3--------3-----3---

[Verse1]

[Chorus1] .. (then)    	F      C      F      C (strum to end)
	              away...away...away...away
---

Feels So Good


FEELS SO GOOD (This Nightmare)

(use 5th fret A (E shape), and 5th fret D (A shape))

	   A               D
(Intro) E|-----------5-----------------5----
        B|------5-------5--------7--------7-
        G|-6--6---6--------7--7-----7-------      (x 4)
        D|-7---------------7----------------
        A|----------------------------------
        E|----------------------------------

(V1)  A                      D
	When you touch me it feels so good
                     A               D
	You know you make me won't to scream
      A                  D
	When you hold me tight in your arms
          G                   E
	I cannot believe this dream

(V2)	Floating on a cloud the birds sing so loud
	And I'm buzzing with the bees
	High in the sky past the elephant's eye
	O won't you come ride with me

(CH)	   A        D            A        D
	It feels so good, and it feels so good
	       A          D                G     E
	And it feels like nothing that I've ever had

(V3)	Catch the sweet thing with the spider legs,
	Oh when it rains it really pours
	I taste the fruit all dripping on me
	It never felt like this before

(V4)	I am drowning in such sweet surrender
	And you sing me a lullaby
	The blood from my heart reaches my brain
	I've never been so high

[CHORUS]
                                  A--- into verse 5 
e|----------------------------------
B|----------------------------------
G|----------------------------------
D|----------------------------------
A|-4^5--4^5--4^5--7--5--4^5^4--0--0-
E|----------------------------------

(V5)	I taste the poison when I touch your lips
	The poison in your kiss
	This strange feeling has come over me
	And I'm gonna love you to death
	
(V6)	A dream angel won't you fly in me
	Is that the devil in your eyes
	It feels so good when you're touching my skin
	Like I could almost die

[CHORUS] x 2

	     A
	.....Oh
---


Yes I Wanna Go

Yes I Wanna Go
(Blind Love)

Intro E|---------------------------------------------
      B|---------------------------------------------
      G|---------------------------------------------      x 2
      D|-2--2--2--2---2--2--2---2--2--2--------------
      A|-0--0--4--0---0--4--0---0--4--4--2--2--2--2--
      E|---------------------------------0--0--2--4--


      Now in the verses, you use these:

Riff1 E|-------------------------------------------
      B|-------------------------------------------
      G|-------------------------------------------
      D|-2--2--2--2---2--2--2---2--2--2---2--2--2--  etc.
      A|-0--0--4--0---0--4--0---0--4--0---0--4--0--
      E|-------------------------------------------

Riff2 E|-------------------------------------------
      B|-------------------------------------------
      G|-2--2--2--2---2--2--2---2--2--2---2--2--2--
      D|-0--0--4--0---0--4--0---0--4--0---0--4--0--
      A|-------------------------------------------
      E|-------------------------------------------


(V1)  [Riff1]...
      I'm flying high with two feet on the floor

      Six, six city flight path like a-never before
      [Riff2]
      Oh I am going crazy, crazy with delight
      [Riff1]
      Fun, fun, fun on every night 


(CH)    E               D
        Yes I wanna go, you can make me do
        A                            [Intro]
        Anything that you want me to


(V2)    To the stars and back every night
        Interstellar surfing till my heart's delight
        My mamma's going crazy, daddy's going too
        Fun, fun, fun we ain't got nothing to lose


[Chorus] ... tonight


(Solo)  E|-----------------------------------------------
        B|-5-5-5-5-5--5-5-5-5-5--5-5-5-5-5-7-8--7--5-----
        G|-6-6-6-6-6--6-6-6-6-6--6-6-6-6-6-6-6--6--6-----
        D|-7-7-7-7-7--7-7-7-7-7--7-7-7-7-7-7-7--7--7--7--
        A|--------------------------------------------0--
        E|-----------------------------------------------

        E|-------------------------------------------------------------
        B|-----------------------------------5-5-5-5-5--7-8-7-8--5-5-5-
        G|-4^5--4^5^4--4/2---4^5--4^5--4^5---6-6-6-6-6--6-6-6-6--6-6-6-
        D|-0----0------0-----0----0----0-----7-7-7-7-7--7-7-7-7--7-7-7-
        A|-------------------------------------------------------------
        E|-------------------------------------------------------------

           E(Ashape)  D(Ashape)
        E|-7-7-7-7-7--5-5-5-5-5------------------------------------------
        B|-9-9-9-9-9--7-7-7-7-7------------------------------------------
        G|-9-9-9-9-9--7-7-7-7-7----------------------------------9-9-9-9-
        D|-9-9-9-9-9--7-7-7-7-7--7--7--10--7--7--10--7--10--12---9-9-9-9-
        A|-7-7-7-7-7--5-5-5-5-5--0--0--0---0--0--0---0--0---0----7-7-7-7-
        E|---------------------------------------------------------------


(V3)    My sister says "don't waste my time"
        In and out of trouble like a nursery rhyme
        My friends are going crazy, I am going too
        Fun, fun, fun we ain't got nothing to lose

[Chorus]

[Intro] x 2

(Solo2) E|-------------------------------------
        B|-------------------------------------
        G|-2--2--2--2--------2--5--4--2--------    x 2
        D|-0--0--4--0--0--4--------------4--0--
        A|-------------------------------------
        E|-------------------------------------

                                  E          D          A
        E|------------------------0-0-0-0-0--2-2-2-2-2--0-0-0-0-0-
        B|------------------------0-0-0-0-0--3-3-3-3-3--2-2-2-2-2-
        G|------------------------1-1-1-1-1--2-2-2-2-2--2-2-2-2-2-
        D|-2-2-2-2--2-2-2--2-2-2--2-2-2-2-2--0-0-0-0-0--2-2-2-2-2-
        A|-0-0-4-0--0-4-0--0-4-0--2-2-2-2-2-------------0-0-0-0-0-
        E|--------------------------------------------------------
	
        E|-----------------------------
        B|-----------------------------
        G|-----------------------------
        D|-----------------------------
        A|-0-0-0-0---------------------
        E|----------3-2-0-0-2-4--------


[Intro] (to fade)

---


Baby Baby


Baby Baby (Blind Love)

Tempo = 133
(V1)	      D     G             A   A9   A  Asus  A
	 	I'm feeling oh so sad
	      D              G                    A        A9    A  Asus  A
		You were the best thing that I've ever had
	      D              G      
		I can't stop thinking about you
	      D                     A
		All the fun and the times that we've had
	      D              G                   A     (hit hard into Chorus!)
		I can't stop thinking about you, oh no

(CH)	      E             A
		Baby baby I love you so
		    B               A       B
		And I don't want to let you go
	      E             A
		Baby baby I feel all right 
		     B           A     B      A  B    E|-------2-  (Riff)
		When I hold onto you tonight	      B|-4-------
						      G|----4----
						      D|---------
						      A|---------
						      E|---------

(V2)	I'm feeling oh so blue
	I'm lost in love just don't know what to do
	I can't stop dreaming about you
	I've been dreaming every day
	I can't stop dreaming about you, oh no

[Chorus]

(note for solo: just hold A shape and begin at the 7th fret (E).  Looks 
hard but just follow the fret numbers if want - some I don't know whether
to call a flat or a sharp?)

(SOLO)	7    9   11  12   11  9   7    6   4   2  4   6
	E // F#  G#  A // G#  F#  E // Eb  Db  B  Db  Eb 

        7    9   11  12   11  9   7    6   4   2     0   2
	E // F#  G#  A // G#  F#  E // Eb  Db  B     A / B   (then Riff)

(V3)	I'm feeling so afraid
	I've never felt so lonely as I'm feeling today
	I can't help thinking about you
	I've been thinking every day
	I can't help dreaming about you, oh no

[Chorus]   repeat to fade - 3rd time up a fret (to F)
			  - 4th time up another fret (to F#)
			  - etc	

---

Hopeless Mind


HOPELESS MIND (Blind Love)

[Riff] E|-------0----------0-----0
       B|----2-----2--2/3-----3---
       G|-2-----------------------
       D|-------------------------
       A|-------------------------
       E|-------------------------

[Riff+] E|-------0----------0----
        B|----2-----2--2/3-----2-
        G|-2---------------------
        D|-----------------------
        A|-----------------------
        E|-----------------------

(Intro)	[Riff] x 4

(V1)	[Riff] x 2
	The sky is falling down
	[Riff]         [Riff+]
	Hiding a smile under my frown
      D                           [Riff] x 2
	Lost and alone in reality

(V2)	The world is closing in
	Chasing my tail I don't know where to begin
	Lost and alone in reality

(CH)  B		    E  			  B	
	And I am so happy just to be with you
     		    E    		  B
	And I am so happy just to be with you
		    E        D           [Riff] x 4
	And I am so happy in my hopeless mind

(V3)	A plane falls from the sky
	300 dead, no one survives
	Lost and alone in reality

(V4)	I am breathing the air
	The lifeless grey of the city square
	Lost and alone in reality

[Chorus]

	A  Asus  A  Asus  E  D  [Riff] x 4

(V5)	And my perception is gone
	Always feeling something is wrong
	Lost and alone in reality

(V6)	Getting lost in the crowd
	Always feeling like screaming out loud
	Lost and alone in reality

[Chorus]

	A  Asus  A  Asus  A    A  Asus  A  Asus

	E  D  A  Asus...(to fade)

---

That Aint Bad


THAT AIN'T BAD (Blind Love)

Tempo = 134
(For this, the best chords are bar chords)

 D  E|---|---|---|---|-X-|---|---   A  E|---|---|---|---|-X-|---|---
    B|---|---|---|---|-X-|---|-X-      B|---|---|---|---|-X-|---|---
    G|---|---|---|---|-X-|---|-X-      G|---|---|---|---|-X-|-X-|---
    D|---|---|---|---|-X-|---|-X-      D|---|---|---|---|-X-|---|-X-
    A|---|---|---|---|-X-|---|---      A|---|---|---|---|-X-|---|-X-
    E|---|---|---|---|---|---|---      E|---|---|---|---|-X-|---|---

G...same as A but 2 frets lower (on 3rd)
E...same as D but 2 frets higher (7th)
B...same as A but 2 frets higher (7th)

So that's all you need...now here's the song (the first verse has just 
the bass and drums, but whatever)

      D              A                     G       A
 (V1)   They told me that you were really bad news
      D                 A                 G    A
	They said that you were no good for me
      D              A               G        A     
	They told me that you were a bad, bad person
      D          A                G   A
	But you seem all right to me

        E   B             A   B      E
 (CH)          I love you        Ye..ah
	         B        A   B      E
               I love you        Ye..ah
                 B        A   B      E
	       I love you        Ye..ah
	         B        A   B
               I love you

 (V2)	They told me that you hung around with all the wrong people
	They said that you were no good for me
	They said I should not even talk to you
	Oh now you seem all right to me

[Chorus]

(SOLO Revised)

 E|-------------------12-10------------------------------------
 B|-------10-------10-------10------------------------------10-
 G|-11-------11-11-------------11-11^12^11-12-11-11-11...11----
 D|----12----------------------------------------12-12...------
 A|------------------------------------------------------------
 E|------------------------------------------------------------

 E|-12^10----------------------------12...---------12...---------
 B|-------10-------------------------12...---------12...---------
 G|----------11----11-11^12^11-12-14-13...14-13-14-13...14-13-14-
 D|-------------12-------------------14...---------14...---------
 A|--------------------------------------------------------------
 E|--------------------------------------------------------------

Explanations:
	The ...'s mean to just keep playing the notes for the duration of 
that 'bit' - this assumes that you know what the solo sounds like.

	The first part is played pretty much by making a D chord (E shape 
at 10th fret).  It does involve a little 'twiddling'.

	You can play that last held chord of the solo by doing it all one 
fret lower and bending up to the notes shown. 

(END SOLO)
 
  (V3)	They told me that you lied
	They said that you would do something bad to me
	But I cannot seem to see that side
	A-when, when you're holding onto me

[Chorus]

                       E    B
 (END)  And That Ain't Bad
                   A      B
	That Ain't Bad (I love you)    (etc. to fade)

(Fade out lyrics)
	Oh no, no I don't wanna ever not ever lose you, babe
	Because I just love to be around you!
	Coz you know I call you my friend!
	When you wanna go I just get scared, I don't wanna let you go
	I hold on for ever and ever and ever and ever
	And I walk around you with my heart in your hand
	You can walk around with mine because baby I love you (I love you)

---

Don't Go Now


DON'T GO NOW  (Blind Love)

Tempo = 115
(* note - this song is slightly higher pitch on the Blind Love CD, so if 
you want play along without having to retune your guitar you'll have to 
use the Alive EP)

(V1)                   G                  C  
	Well I've been looking around for some kind of feeling
        Am               D     G
	Some kind of sensation
	        C          Am             D   G
	And you know I can feel it all inside
	        C
	I don't care where you've been
            Am              D                    G
	And I don't care to see what you've seen
                  C              Am                  D
	Don't you know I will be dying to be by your side

(CH)	         G   C  G  C        G   C  D 
	Don't Go Now       Don't Go Now
		 G   C  G  C        G   C  D
	Don't Go Now       Don't Go Now

(V2)    Well you can have my heart and have my soul
	Without you I feel cold
	Won't you come with me and I will make you happy
	And then when I'm alone 
	I'll dream of you till the day is done
	Don't you know I will be dying to be by your side

[Chorus]  (with Dsus at the end) x 2

[SOLO RIFF] (here goes nothin' - I think the stuff on the B string is wrong)
	(Oh, also note that dots between notes mean to play quicker)

E |-----------------------------------------------------------------------
B |-----------------------------------------------------------------------
G |-----------------------------------------------------------------------
D |--------------------2-----0.0.0-0.0.0------------------------------2---
A |-------2-----3.3.3-----3---------------3--2--3--------2-----3.3.3-----3
E |-3--3-----3-------------------------------------3--3-----3-------------

E |-----------------------------------------------------------------------
B |----------0--1-1.1--0--1--1--1--0--------3--1--0-----------0--1.1--0.0-
G |-0--0--0---------------------------0--2-----------0--0--0--------------
D |-----------------------------------------------------------------------
A |-----------------------------------------------------------------------
E |-----------------------------------------------------------------------

E |---------------10--10--10---8--8--8.8---7--7--7---5--5--5.5------------
B |---------------10--10--10---8--8--8.8---7--7--7---5--5--5.5------------
G |-0--2.2...2.2----------------------------------------------------------
D |-----------------------------------------------------------------------
A |-----------------------------------------------------------------------
E |-----------------------------------------------------------------------

Then : / /  //// / /  //// / /  //// -----
       G    C    G    C    G    C    D       (then E |-2--0----- 
                                                   B |-------3--   I think?
Where G chord is:       and C chord is:
E |---|---|-X-          E |---|---|-X-      
B |---|---|-X-          B |---|---|-X-
G |---|---|---          G |---|---|---
D |---|---|---          D |---|-X-|---
A |---|-X-|---          A |---|---|-X-
E |---|---|-X-          E x


And again:
       / /  //// / /  //// / /  //// 
       G    C    G    C    G    C    D    Dsus    D    Dsus

(V3)	I will love you, I will love you forever
	When you smile at me you make me feel so happy
	And then when I'm alone
	I'll dream of you till the day is done
	Don't you know I will be dying to be by your side

[Chorus]

                Dsus          D             Dsus                 G (hold)
	I wanna live, I wanna live, I wanna live with you till I die
---

The End


THE END
(Blind Love)

Notes: C/B...X22010   Am7...X02010  D/F#...XX4232

V1)    G                      D
	Cat scratch my heart again
			      Em
	Love's blood keeps on dripping

	White light flash high
	C	  C/B   Am7	G
	This time I can see the end

V2)	Time keeps ticking along
	Beat to the sound of a song
	Beat everlasting and
	Twice as fast as this time is ticking today

V3)	This taste is not quite of you
	This scent seems strange to me too
	Your touch is so cold
	What sacrifice made for this to be you

V4)	The world keeps spinning around
	Sometimes I'm losing my head
	Lost up above
	I see the stars, this universe will never end  

V5)	Feeling so soft in your touch
	Tingling under my skin
	My hearts beating faster
	My heads feeling lighter, white light will shine on me and you

V6)	     G                D
	This time will be the end
		       Em
	Say goodbye my only friend
	
	This time's the last time
	C    C/B    Am7
	This is the end

Ch)	G            Bm     C
	Let a little love into your life
	G          Bm          C
	Just reach out and let be
	G            Bm     C
	Let a little love into your life
        G          Bm      C        [Riff]
	Just reach out and hold onto me

			   D(5f)    C(3f)    Bm       Am
		[Riff]	E|------------------------------------
			B|----7--------5--------3--------1----
			G|-------7--------5--------4--------2-
			D|------------------------------------
			A|-5--------3--------2--------0-------
			E|------------------------------------

	   C	    Em	     F                    D/F#
[Solo]	E|-0--------0-----------------1--------1-----------2--------2-
	B|-1--------0--------------1-----1-----1--------3-----3-----3-
	G|-0--------0-----------2-----------2--2-----2-----------2--2- (x 2)
	D|-2--------2--0--2--3-----------------3--4-----------------4-
	A|-3--3--2--2--------3-----------------3----------------------
	E|----------0--------------------------1----------------------

[V1]

[V2]

[V6]

[Ch] x 2

---

Never Really There


NEVER REALLY THERE
(Insideout)

(Riff)	
  E|-4--0-----4--5--0-----5--4--0-----4--2--0----
  B|-------0-----------0-----------0-----------0-
  G|---------------------------------------------
  D|---------------------------------------------
  A|---------------------------------------------
  E|---------------------------------------------

  E|-2--4--0-----4--5--0-----5--4-----2-----0-
  B|----------0-----------0--------0-----0----
  G|------------------------------------------
  D|------------------------------------------
  A|------------------------------------------
  E|------------------------------------------

(V1)	B		A		 E
	I'm not wasting time I'm waiting for you
	B		A   		E
	I'm not wasting time I'm waitng here

[Verse1]

(Ch)	A				   E  B  E  B
	Every time I'm with you I feel happy
	A				     B
	Then at times I just don't think you care
	    B			        
	You never know I'm really there

[Riff]

(V2)	Turn me on and off, you drive me crazy
	Turn me on and off, now disappear

[Verse2]

[Chorus]

(Run)   E|-0-------------------------
        B|----4--0--2--0-------------
        G|----------------1--2--1----
        D|-------------------------2-
        A|---------------------------
        E|---------------------------

(Interlude)       E  F//////  x 6  (best to use barre1 for F)

[Chorus]

        [Riff]
        Never really there    x 4
	
---

Candyman


CANDYMAN
(Insideout)

Note:  In the verses, it sounds OK to put a D in after the A (normal D
after the normal A and 5th fret D after the 5th fret A)

(V1)	A     
	Mother, mother
	            A(5fEshape)
	I'm feeling ill
	             A
	Can I have a pill
	              A(5f)  G  E
	So I'm not so ill 

(V2)	Father, father
	I'm feeling ill
	Can I have a pill
	So I'm not so ill

(CH)	    G             E     
	The Candyman says take another pill
                     A  /   /   / /  D      G  E
	And make the world seem good....

(V3)	Doctor doctor
	I'm feeling ill
	Can you get me a pill
	So I'm not so ill

(V4)	Doctor doctor
	I'm feeling ill
	Can you get me a pill
	So I can get my thrills

[Chorus]

(V5)	Doctor, doctor
	You're looking ill
	Maybe take a pill
	So you're not so ill

(V6)	Doctor, doctor
	You're looking ill
	Maybe take a pill
	So you can get your thrills

[Chorus]

	         A               D
	Make the world seem good    (x6)

	G // / /E  (hope this makes some sense) 

---

LOVE NO MORE


LOVE NO MORE (INSIDEOUT)


(RIFF 1) x 2
E|------------------------------------------------------------------------
B|-3--3--3--0-------------------------------------------------------------
G|------------2-----0--2--2--4--2--0-----0--2--2--4--2--0-----0--2--2-----
D|---------------4--------------------4--------------------4----------4--0
A|------------------------------------------------------------------------
E|------------------------------------------------------------------------

(CH)	E           A        E
	My girl she says she loves me no more
            A        E  
	She says she loves me no more
 	    A        E
	She says she don't love me now

[Chorus] (again)

(V1)	D                             G
	The way she thinks it's all a game
	                          A
	She throws me in and out again   //
                               D         G
	I'll be better off without her

(V2)	Hiding from the dragon's flame
	I'm in the way and scorched again
	I'll be better off without her

[Chorus]

(V3)	A broken heart's a window pane
	A broken heart, no not again
	I'll, be better off without her

(V4)	So brain washed and hypnotised
	Now I see all of the lies
	I'll be better off without her

[RIFF 2]
E|-0--0--0------------------------------------------------------------------
B|----------2--0--------0--0--2--0-----------0--0--2--0-----------0--0------
G|----------------1--2--------------2--1--2--------------2--1--2--------1---
D|-------------------------------------------------------------------------2
A|--------------------------------------------------------------------------
E|--------------------------------------------------------------------------

[Riff 1] 
Note: B is 2nd Fret (Ashape) Barre

(BR)	        A                  G           D
		Lonely crow in the middle of a bad dream
	     B  A                    G           D
		Restless soul in the middle of a scream
             B  A                   G      D
		One black crow on a lonely road
             B  A                 G             D
		When I wake up my head is still screaming

[Chorus] x 2

(END)	    E  A            E   A            E
		Now love is gone I must move on
            A               E  A            E   A...
		Gotta get away, gotta get along        (repeat to fade)
---

Chasing



Note: C#m --  E|---|---|---|-X-|---|---
              B|---|---|---|-X-|-X-|---
              G|---|---|---|-X-|---|-X-
              D|---|---|---|-X-|---|-X-
              A|---|---|---|-X-|---|---
              E|---|---|---|-X-|---|---
                   1   2   3   4   5   6

CHASING
(Insideout)

(Riff)  E|-----0---------0---------0---------0-----
        B|--------0---------0---------0---------0--
        G|-----------------------------------------
        D|-14--------13--------11--------13--------
        A|-----------------------------------------
        E|-----------------------------------------

        E|-----0---------0---------0---------0-----
        B|--------0---------0---------0---------0--
        G|-14--------13--------11--------11--------
        D|-----------------------------------------
        A|-----------------------------------------
        E|-----------------------------------------

(Intro)	[Riff] x 2

(CH)    [Riff] 
	I never seem to ever really get it right, chasing after you
	[Riff]
	I always seem to somehow get it wrong, chasing after you
	
(Mid)	E  B  E  B  E  B  E  B

(V1)	A                 B                  E       B     C#m / /  B
	  My foot's in my mouth every time I open it up to speak
	A                  B                 E    B            C#m / / B
	  My throat's in a knot every time I have something to say 
	A                   B          (E)
	  It doesn't really matter anyway

[Riff]

[Chorus]

[Mid]	E  B        E  B        E  B        E  B
	   Walk on by, walk on by, walk on by, walk on

(V2)	I go weak at the knees every time I think how I'd like to please
	I find my tongue tied every time I open my mouth to say
	It doesn't really matter anyway

(BR)	E // C#m          A                          E
	     I believe in dreams and I'm dreaming of you
	     B       E   /// ---3 strums
	     Oh it's true
	 C#m            A			  E
	     Maybe I am crazy - some dreams do come true
	   B   E           ///
	     I know they do
	 C#m              A                     E
	     Every time I see you I lose all control
             B     E       ///
	     Of my feelings
         C#m          A                     E
	     How do I tell you how I feel inside
                    B
	     As you walk on by

[Chorus]

[Riff]  (repeat to fade)
---

Holiday


HOLIDAY
(Insideout)

Note: Alot of the time you can cheat with the B minor and just play B so 
you don't have to muck around with moving your finger shapes.  And this 
is quite tricky to play, sorry 'bout that...just blame Simon!  Also, all 
these chords are barred (G 3rd; C 3rd; D 5th; Bm 2nd), that's why it's 
tricky.



(Intro)	G  Bm  C   D  C  G
			   Here we go!

(CH1)	G  Bm  C           D  C  G           G  Bm  C
		 I'm going 	   on a holiday
		             D  C  G     E|-------
		 So much for me to do    B|-------
					 G|-4^5^4-   (use pinky while
					 D|-------   holding the rest of
				 	 A|-------   your fingers on the
					 E|-------   G chord)

	G  Bm  C           D  C  G           G  Bm  C
		 I'm going         on a holiday
	                    D  C   G
	         Maybe just me and you



(V1)	D        C                G (twiddle with pinky as above)
 	  Cast a-sailing on the seaside  (oo-oo-oo-ooo!)
	D	    C              G (twiddle..)
	  Breathing in the seaside air  
	D          C             [Riff] 
	  Won't be long till I'm there

(Riff)
E|-------------------------------------------------------------------
B|------------------------------------------0--1^3^1-----0--1^3--1--0
G|------------------------------0--0--0--0------------0--------------
D|--------------------0--0^4--4^-------------------------------------
A|------2--2^3--3--3-------------------------------------------------
E|-3--3^-------------------------------------------------------------

[CH1]

(V2)	Set for adventure to the unknown
	Set a course for far away
	Won't be long till I'm there

[Riff] x 2

(Mid)	Bm          C          G    D
	Life here's getting me down
	Bm        C            D
	I've just got to get away

(CH2)	We're going on a holiday
	Such fun for me and you
	We're going on a holiday
	Maybe we'll see you soon

(V3)	Surfing on the ocean waves
	Soaking in the sunny days
	Now I think maybe we'll stay

        [Riff2] x lots
(end)   We're going on a holiday...  (to fade)

(Riff)  E|------------
        B|-0^1^0-----3
        G|--------0---
        D|------------
        A|------------
        E|------------

---

Sick Of Being Down


SICK OF BEING DOWN
(Insideout)

Note: best to use barres for this one :)

(Intro)	A  E D# D  E  A  E

(V1)	   A                E                    
	Oh baby baby, has a cat got your tongue?
	D#     D                     E  A              E(normal) 
	You're sitting there so quiet,   what is going on?
	   A                E  
	Oh baby baby, has a cat got your tongue?
	D#     D                     E  A
	You're looking at me so quiet,   what have I done wrong?

(CH)	D                              A
	I'm so sick and tired of being down, what a clown
	D				       A
	Rise little summer sunshine, making me happy
		 E               A    	
	Wanna be happy, gonna be happy	
        E|--------------
        B|-5------------
        G|------7--6--7-   x 4
        D|--------------
        A|--------------
        E|--------------

(V2)	Oh baby baby, what's with all the frown?
	Gotta keep that pretty face smiling
	Sorrow knocked you round                      x 2

[Chorus]

(Solo)  E|--------------------------------------0^4--2--0-
        B|-------------2--3--2--0----------0.0------------
        G|----------2--------------2----------------------
        D|-2--2--2--------------------4/2-----------------
        A|------------------------------------------------
        E|------------------------------------------------

        E|-----------------------------------------------
        B|-3------------3--------------------------------
        G|----2------------2-----------------------------
        D|-------4--0---------4--0--2.2-------------0--2-
        A|-------------------------------0--0--4.4-------
        E|-----------------------------------------------

(V3)	Oh baby baby, when the rain is falling down
	Gotta keep my head out of water
	Head up not to drown
	Oh baby baby, come blow me away
	Gotta keep my two feet on the ground
	Gonna keep my head peddling the wind

[Chorus] x 2    

	Wanna be happy, gonna be happy    x 3

	Wanna be happy, gonna be...

---

The World


THE WORLD (Insideout)

(INTRO)	E....

	E  A  B (x4) (note here: on "wrapper" version he plucks the G and
			B strings while playing the E chord on the 7th fret
			- A shape.  You know, before playing the A and B chords
			its that little high 'da da'...don't get it, huh?)

(V1)	    E                             B               A
	The world is getting smaller each day I'm getting taller
		E               
	And the globe is spinning faster round 
	   B             A             E     A  B
	As I'm a-getting older all the time

(V2)	The meek are getting stronger, the tall are getting shorter
	The buildings are all burning down
	Before the call the city sky is black



(CH1)    E  A  B  E          A B 
	            Hold on to give it away     (x4)

[Verse1]

(V3)	The clock is ticking faster as time becomes the master
	And it's time for us to all think fast
	If this world is ever going to last

[Chorus1]

Mid-bit: Need some bread to get fed
	I need some money to get my honey anything her little heart desires
	I need some loot for my new suit
	I need some cash to get some
	Has anybody seen where I put my cash?

(CH2)	      E          A  B
		Easy come,    easy go    (repeat to fade)

---

Dead

DEAD
(Insideout)

Intro   C  G
        C  G  C  G  F  G
        F  C  G  F  C  G

V1)     C                      G
        She is dead and gone
        C
        Resting in the grave
            G                       F
        She always made us laugh
           G
        At times she made me cry

CH)     F       C     G
        Always on my mind
        F     C        G
        I can see your eyes
                         C   G  C
        They won't go away

V2)     She haunts me in my dreams
        I wish she was awake
        The hate you feel inside
        I wish you were alive

[Chorus] ... G  F  G  C  Am  F  G  C

V3)     It's sad to see her go
        Some things I had to say
        My thoughts will be with you
        I will see you soon

[Chorus]

        G                  F  G
        Never coming back,  never coming back

[Verse 2]

[Verse 1]

End)    C  G  C  G  C  G
---

Never Give It Up


Never Give It Up (Live Ver)
(Easy Rider)

*Notes* Cadd9 (not sure if that's the right name) is X32033 (lowE-highE)

(Intro) E|---------------      *BASS  G|------------------------
        B|---------------             D|--------------------2--0
        G|-------------0-   X 2       A|-------2-----3.3.3------
        D|----------0----             E|-3--3-----3-------------
        A|----0--2-------
        E|-3-------------

(Riff)	E|-------------------------
        B|-------------------------
        G|-----------------------0-   (Use throughout verses)
        D|--------------------2----   (...Twice per line)
        A|-------2-----3.3.3-------
        E|-3--3-----3--------------


(V1)    My mamma she does tell me, I have to stop all my drinking. 
        It is doing nothing for my brain cells and my thinking.
        When I get thirsty I have to have a drink.
        I've got all the problems, I don't wanna think.


(Brg)   D
        Everything I like is like a bullet from a gun.
          D
        I only live once, I'm gonna have some fun.

	{Never give it up, Never give it up}
	{Never give it up, Never gonna give it up.} x 3 (Backing)


(CH)      G    Cadd9 G    Cadd9              |
       I like it, I like it                  | x 2 
            G            Cadd9   G   Cadd9   | Live !
       And I ain't never gonna give it up.   |


(V2)   Driving in my car, with my baby by my side.
       Says to me to slow down, cause she wants to stay alive.
       I get this sudden impulse, and my foot goes to the floor.
       I just love that feeling, when I hear the engine roar.

[Ch]   I like it, I like it and I ain't never gonna give it up.  
       I like it, I like it and I ain't never gonna give it up.

(V3)   I went to the Doctor and he told me no more smoking.
       How is it I feel OK without a bit of toking ?
       How do I get through the day without a cigarette ?
       He said oh boy, it just may be your last cigarette yet.


(Brg)  Everything I like is like a bullet from a gun.
       I'll only live once, I'm gonna have some fun.

       {Never give it up, Never give it up.}
       {Never give it up, Never gonna give it up.} x 3 (backing)


(V4)   All my friends they tell me, I'm having too much sex.
       Randy had a heart attack, I just may be next.
       I can't get enought for that feeling of the flesh.
       I haven't reached my peak, haven't reached my best.

[Brg]  And Everything I like is like a bullet from a gun.
       I'll only live once, I'm gonna have some fun.

[Ch]   I like it, I like it and I ain't never gonna give it up.  
       I like it, I like it and I ain't never gonna give it up.


       {Never give it up, Never give it up.}
       {Never give it up, Never gonna give it up.} x 4

[Intro]  end on G chord.

---

May You Ever


May You Ever
(Easy Rider)

(Intro)	A /  Asus  A /  A9   x 4

(CH)	A /   Asus A /   A9      D                    A /
	Love, my   love  may you ever ever ever dream on.        
        Asus A /   A9      D                    A /
        Oh my love may you ever ever ever dream on.

(V1)    A        E
	Well you fake a smile to brighten your day.
        E
        Take a step back to be on your plane.
        E
	Got to hold on, don't ever give in,
        E                                                     (Intro)
	believe what you be. And believe til the day that you win.

(Chorus)

(V2)    **Cool white light does shine from your eyes.
        Got to see you live your desires.
        Got to hold on, don't ever give in, 
        believe what you be.
        And believe til the day that you win.


(X)	B          E            A \ B             E
	Kicking at time, take a bow. Core all the way.
        A \ B            E       A
        Kicking at time, kicking today.

(X#2) 	Don't show your hand to anyone.
        Go hide it high.
        Kicking today, kicking tonight.

(Solo) E|--9---9---9^10^9--7--5--5--5-
       B|-10--10--10-------7--5--5--5-
       G|-----------------------------   x 3
       D|-----------------------------
       A|-----------------------------
       E|-----------------------------
	 
 E|--9---9---9^10^9--7--5--5--10--9--5--------10-
 B|-10--10--10-------7--5--5---------7--------10-
 G|----------------------------------7--------11-   x 2, then A chord
 D|----------------------------------7--------12-
 A|----------------------------------5-----------
 E|----------------------------------------------

(Chorus)

(V3)   Go Rise above all those with no feel.
       Getting a hold of all that **feels real.
       Got to hold on, don't ever give in, believe what you be.
       Believe til the day that you end.


(End)	A /   Asus A /  A9
	Love, my   love,    (x 4)
	A9      D                    A (hold)
	May you ever ever ever dream on.

---

Easy Rider


Easy Rider 
(Easy Rider)

*NOTES*
The (!!!) in this one means to just leave the chord ringing.
Bass lick - should be right.


(Intro)	G  Bb  A  Ab

(V1)	G (strum and leave)         : Bass  G|--------------------------
	Heading to see the Sun.     :       D|--------------------------
        !!!                         :       A|--------------------------
	Can't make it with one. !!! :       E|-3.3--2.2--0.0--2--2--0--2
	(pick G chord a bit)
	Holding out, while your holding in.
	!!!
	Can't wait to begin.

(Run)   E|-------------------------------
into    B|-------------------------------
chorus  G|-----------------------0-------
        D|-----------2--------------0----
        A|-0^2^3--3-----3--2--3----------
        E|-----------------------------3-

        Easing ahead.

(CH)    G  C  A  C (x3)
	

(V2)    God seen it before.
        Going down to E4.
        We sharing rhythm exploding in time.
        Engulfing in your mind.

[Run]    Easing ahead.

[Chorus]  

(Mid)	G    Bb  A      Ab  G  Bb  A
	  Go       Easy Rider         (x2)

(V3)   Playing light on the air.
       Letting go of all care.
       Holding on, while death spells a rhyme.
       Will come around here in time.

(Chorus)  Easing ahead. (x2)
          Go Easyrider. x 7
          Go, Go, Go, Go, Easy, Easyrider. 

End with  G  Bb  A  C  G

---

Elvis With A Kite


Elvis With A Kite
(Easyrider)

Notes: The G chord is probably easiest, E shape 3rd fret.  
Also, the Solo bit is too darn hard (Over Mixed two Guitars).

[Intro] E|-1/2--
        B|-2/3--
        G|-1/2--        (x 4)  (Slide D shape)
        D|------
        A|------
        E|------

(V1)    D                     G
        Hold a candlestick, as a magic trick
        F#m                   Em
        Lighting up a wick, magic trick
        D                   G
        See a movie star, and a crashing car
        F#m             Em
        Near nor far, crashing car
        D   G  F#m Em    D  G  F#m Em
        Holding onto the reigns

(V2)    All religious tripe, cutting (it?) with a knife
        If I may I might, motorbike
        Elvis with a kite, switchblade knife
        Take the flight, give (keep?) up the fight
        Holding onto the rails

(Ch) G           A          D       A D A
        When my mind meets madness
     G    A              D       A D A
        We walk here hand in hand
     G            A
        We tread a crooked path
             D                   Bm
        That sometimes really is strange
              G    A
        O' my dear...

(Riff)  e|----------2--0-----------------------------------
        B|-------3--------3--2--0--------------------------
        G|----2--------------------2--0--------------------
        D|-0-----------------------------4--2--4^5^4--2--0-
        A|-------------------------------------------------
        E|-------------------------------------------------

        e|----------2--0-----------------------------------
        B|-------3--------3--2--0--------------------------
        G|----2--------------------2--0------------------2-
        D|-0-----------------------------4--2--4^5^4--0----
        A|-------------------------------------------------
        E|-------------------------------------------------

(V3)    Holding onto snakes, eating cake
        Only life at stake, onto snakes
        Gotta get a feed, gotta notta bleed
        Succeed, aim to super-ceed
        Holding onto the reigns

(V4)    Given life to grow, all I have to know
        Go with the flow, gotta grow
        Path will wind, through another time
        To another kind, another kind
        Holding onto the rails

[Chorus]

[Riff]

(Solo)  e|-------------------------------------0--2--2...
        B|----1--1-----3--3--3--------3--1--1--1--3--3...
        G|-2--------2-----------2--2------------------...       (too hard...!)
        D|--------------------------------------------...
        A|--------------------------------------------...
        E|--------------------------------------------...

        e|...---------------------------------------------
        B|...-3-------------------------------------------
        G|...----2--2--0--0--------------0-----2--0-----0-
        D|...----------------4--0--0--2-----2--------4----
        A|...---------------------------------------------
        E|...---------------------------------------------

[Chorus]

[Riff] Ad lib to end...

---


Baby Come Back


Baby Come Back
(Easyrider)

[Riff]:
e|-------5--------5--------5--------5--------5--------5-------------------
B|----7--------7--------8--------8--------7--------7-----------5--8--7--5-
G|-7--------7--------7--------7--------7--------7-----------6-------------
D|-------------------------------------------------------7----------------
A|------------------------------------------------------------------------
E|------------------------------------------------------------------------

e|-------5--------5--------5--------5-------------------
B|----7--------7--------8--------8-----------5--8--7--5-
G|-7--------7--------7--------7-----------6-------------
D|-------------------------------------7----------------
A|------------------------------------------------------
E|------------------------------------------------------

(V1)         D              G
	I've lost all of my mind
            D                 G
	And now I'm trying to find
        D                G                  A     G   Db(4ftAshape)
	Memories of this love that's left behind

(V2)	Visions of you
	And the things we liked to do
	Maybe on a Sunday afternoon

(V3)	Remember all the times
	We used to laugh and skite
	I gave you everything I had, baby come back

[Riff]

(V4)	I've lost all of my head
	For the things I did and I said
	Maybe I'm still better off than dead

(V5)	Hoping one day
	That you'll drop round to say
	Darling, do we have to end this way

[V3]

[Mid 8]	G      A        G       A
	I gave you everything I had
        D         G       D                     G
	Thinking ahead on how to make good from bad
             D                       G                A   G  Db
	Oh I can't believe that I've lost this love I had 

(V6)	I'm sorry this time
	The blame should all be mine
	It's true, I hope you're feeling fine

[V3]

[Riff]...

---

Bucket


Bucket
(Easyrider)

 * For this, you need a "mutant" Asus chord - very nearly a D. It's: X00230 (low-high)

(Intro)	A   Asus  (x2)

(V1)        A                     D
        A Belly full of bucket, a bucket full of bile.

            A                     D
        A tragedy's a comic with acid in his simle.
	  
	E            D
	  I'll wait for something	

(V2)    A belly full of bile, a bucket full of shit.
        Nothing tastes like something, a remedy's a kiss

(CH)    I'll wait for something,
        good to come along.
        So good to come along. (x6)
                                               Asus
(riff)  E  D    e|-------0-----2--0-----0----------
                B|----2-----2--------3-----2----3--
                G|-2----------------------------2--  (x4)
                D|---------------------------------
                A|---------------------------------
                E|---------------------------------

(V3)    A Belly full of bucket, a bucket full of shit.
        A tragedy's a comic with acid in his spit.

[Ch]    I'll wait for something,
        good to come along.

[riff]  /so good to come along. 
       good to come along./ (x 18 to fade)

---

Into The Light


Into The Light
(Easyrider) 

V1)                 A                   E
	It's been a long time since you left me
               D              A
	I'm so lonesome you're not here
                                       E
	It's been a long time since you loved me
               D             A
	I'm so lonely do you care


Br)                A             E
	I dream of angels in the morning
                 D             A
	Dream of devils in the night       (x 2)


Ch)     E                D                          A
	Oh my bruised and my battered heart keeps on bleeding
        E                D                     A
	Oh my bruised and my battered soul keeps on dreaming
        E                 D                    A
	Angel come lift me out of here into the sky
        E                 D                     A
	Angel come lift me out of here, into the light


Solo)	E|-0--------------0--7--5^4^5--------5--4--5--5/7--5--4--0-
	B|-------0--2--3---------------3--3------------------------
	G|-2--2--------------------------------------------------2-
	D|---------------------------------------------------------
	A|---------------------------------------------------------
	E|---------------------------------------------------------

	e|-------------0--7--5^4^5--------5--4--5--7--5--4--5--
	B|----0--2--3---------------3--3-----------------------
	G|-2---------------------------------------------------
	D|-----------------------------------------------------
	A|-----------------------------------------------------
	E|-----------------------------------------------------

	e|-9--9--7--7^9^7--4--5-----0--2--4--2--4--5-------
	B|-----------------------3-------------------------
	G|-------------------------------------------------
	D|-------------------------------------------------
	A|-------------------------------------------------
	E|-------------------------------------------------

	e|-9--7--7^9^7--4--5-----0--2--4--2--0---------
	G|--------------------3------------------------
	B|---------------------------------------------
	D|---------------------------------------------
	A|---------------------------------------------
	E|---------------------------------------------

		
V2)	It's been a long time since you held me
	Tightly in your arms
	It's been a long time since you held me
	Closely to your heart


[Bridge]


[Chorus]

---

Razor Blades


Razor Blades

(Informer 80:629)

(Riff)  E|------5--------3--2-
        B|-3--3----3--3-------
        G|--------------------         x 12
        D|--------------------
        A|--------------------
        E|--------------------

   D...
	My perception is going, my mind it is slowing
                                               G  F#m  Em
	My heart is aching my nerves are breaking
	    	D                         A
	As I exist, dying with my razor blades
	     G
	I am quite prepared to let the .......
      D              A
	All in your name
      D             A            G  
	As my world turns so the sands of time
				      D               A
	Flowing through the hourglass, reality is the same

[Riff] x 8

   	For this is a warning, to who am I talking
	It's not a .......to celebrate my life
	As I exist dying with my razor blades
	I am quite prepared to let the.....
	All in your name
	As my world turns so the sands of time
	Flowing through the hourglass, reality is the same

(Solo1)
      E|------------------------------------------------------------------
      B|------------------------------------------------------------------
      G|--------------------------------------------------------------0--2
      D|------2--0-----0--------------------------0-----2--0--0--4.4------
      A|0--0--------4-----4--2--------------2--3-----0--------------------
      E|------------------------3--3--3--3--------------------------------

	A   D /

[Solo1]

	A

        D --strum this chord going into the solo
(Solo2)
      E|5--3--2.2-----2--3--2--0--0----------2--3--2/0-----2^3^2---
      B|-----------3-----------------3--2.2-------------3---------3
      G|-----------------------------------------------------------
      D|-----------------------------------------------------------  x 2
      A|-----------------------------------------------------------
      E|-----------------------------------------------------------

	D
---

I Think I Love You


I Think I Love You
(Single)

(Intro)	G (bass goes G  F  G  F...)

(V1)	G
	My heart is beating 6000 miles an hour
	Bm	    C   D        G
	And you took my breath away
	G
	And I can hear sweet music playing in my mind
	Bm          C   D        G
	And you took my breath away

(CH)	C			     G
	And when I look at you now I cannot believe my eyes
	C                            G
	And when I look at you now I cannot believe my eyes
	D         C# C        D   G
	  I think I...love you   Ohh

(V2)	I go weak and I stutter when I speak
	And you took my breath away
	And I can feel a shiver running down my spine
	And you took my breath away

[Chorus]

(Fill)  E|------------
        B|----3-------
        G|----------4-    x 2   Bm  C  A  D  C  G  Am  D  G
        D|-5-----5----	        Yoo-o...
        A|------------
        E|------------

[Verse1]

[Chorus]

[Fill]
---

SKIN


Skin (Tingles EP)

(Riff)
  
   D                 G
E|------------------------------
B|------------------------------
G|-11--11--14--11---------------
D|-0---0---0---0-----12--12--12-      x 8
A|-------------------10--10--10-
E|------------------------------

(Riff2)

E|------------------------
B|------------------------
G|-11--9--7--4^5--5--4--2-
D|-0---0--0--0----0--0--0-
A|------------------------
E|------------------------

[Riff] x 2

(V1)	    D           G      D           G   
	The pilot is high the danger is low
	D         G       D              G
	Can't decide just which way to go
	    D           G  D            G
	The guns are going blam, blam, blam
	D              G            D    
	Two somewhere else is worth none in the hand
                Bm                       G   A
	Oh this world, it really gets me down
	             D    G  D  G
	She loves me blind

(V2)	The magician is true the illusion is real
	Seeing's believing, touching's unreal
	The skin is soft and so fine
	One breath away from living or dying
	This world, it really gets me down
	She loves me blind
	Yeah this world, it really gets me down
	She loves me blind

[Riff] x 4

[Riff2]

[Riff] x 4

E|---------------------------------------------      |-0--2--0----------
B|---------------------------------------------      |----------3-------
G|-11--9--7--4^5--5--4--2---11--12--14--12--11-   Bm |-------------0--2-  
D|-0---0--0--0----0--0--0---0---0---0---0---0--      |------------------  |
A|---------------------------------------------      |------------------  |
E|---------------------------------------------      |------------------  |
								  (A) ----	

D  G  D  G


(V3)	The Gunslinger turns, the time has come
	To face death to see what's beyond
	The skin is soft and so fine
	One breath away from living or dying
	This world, it really gets me down
	She loves me blind
	Yeah this world, it really gets me down
	She loves me blind
	Yeah this world, it really gets me down
	She loves me blind

[Riff] x 4

E|------------------------------------
B|------------------------------------
G|-----11------14------11------11-----     (Repeat to fade)
D|-12------12------12------12------12-
A|------------------------------------
E|------------------------------------

---

Another Planet


ANOTHER PLANET 
(Candyman EP)

(Intro)	G  C  G  C  x 2
                                             C
(Riff)  E|-3--3--3----3--3--3----3--3--3-----0--0--0--
        B|-3--3--3^5--3--3--3^5--3--3--3^5---1--1--1--
        G|-0--0--0----0--0--0----0--0--0-----0--0--0--   x 2
        D|-----------------------------------2--2--2--
        A|-----------------------------------3--3--3--
        E|--------------------------------------------

(V1)	[Riff]
	I wanna ride in a UFO
	[Riff]
	Ain't no particular space to go
	[Riff]
	I wanna ride into outer space
	[Riff]
	Ain't no particular time or place

(CH1)	A         C      D     G      [Riff]
	 Another time, another planet

[Verse1]

(CH2)                                [Riff2]   
	Another time, another planet	

      (Riff2) E|-3--3--3----3--3--3----3--3--3----0---------
              B|-3--3--3^5--3--3--3^5--3--3--3^5----3--1--0-
              G|-0--0--0----0--0--0----0--0--0--------------
              D|--------------------------------------------
              A|--------------------------------------------
              E|--------------------------------------------
	
	A                              [Run] 
	 Another time , another planet

          [Run]	E|-0-----------------------
                B|----3--1--0--------------
                G|-------------2--0--------
                D|-------------------4--2--
                A|-------------------------
                E|-------------------------

	D     C   D   G    [Run]
	 Come fly me away
	D     C   D   G   C  G  C
	 Come fly me away

[Verse1]

[Chorus2]    Come fly me away      Come fly me away
         
	I wanna ride in a UFO... (repeat to fade)

--

Rain


RAIN  (Rain ep)

(starts with just bass and drums..)  Note: Play A on the fifth fret (E 
shape) and G on the the 3rd (E shape also).

	
(INTRO) E  A  E  A  B  E  A  E  A  B (bass notes)

[RIFF]  E|-----------------------------       E|-----------------------------
        B|--4^5^4--0--------4^5^4--0---       B|-4^5^4--0--------4^5^4--0>>>>
        G|------------1--2------------- (x 3) G|-----------1--2--------------
        D|----------------------------2       D|-----------------------------
        A|-----------------------------       A|-----------------------------
        E|-----------------------------       E|-----------------------------

	B E           A
 (V1)	Alone, not to be forever
	E		      A
	One day the anti will come
	B E             A
	Go rise......to be one together
	E                     A     (B)
	Why is this such a surprise

 [Riff]

 (V2)   Facade falling down around you
	To see others in diguise
	To start a brand new morning
	Welcome the new day rise

	E  G  A                E
 (CH1)  	Here comes the sun
           G  A         E  G  A                 E  G  A
		Over hori  -  zon like blinding eyes

 (SOLO)

E|----------------------------------------------------------------------
B|-----------------------------------------------------------0--0^2^0--2
G|----------------1--1--2--1------------------1--1--2--1--2-------------
D|-2--2.2^4^2--4--------------4--2--2^4^2--4----------------------------
A|----------------------------------------------------------------------
E|----------------------------------------------------------------------

E|-0--0--2--0--2--4--4--4^5^4--2--0-----0-----------
B|-----------------------------------2-----2--0>>>>>
G|--------------------------------------------------
D|--------------------------------------------------
A|--------------------------------------------------
E|--------------------------------------------------


 (V3) 	'Tis night, and I'm so happy to meet you
	To see a new star rise
	Tonight, to be happy together
	To feeling no need to cry

[Chorus1]

 (CH2)  Losing disguise
	Here comes the rain
	Washing away all of the pain

--

All This Talk


Note: in Riff1 I've included the chords above because the 
easiest way to play it is to hold the chord shapes and just pluck the 
strings - as opposed to hitting each string with individual fingers.  And 
for the Csus(?) (Proper Csus is 01033X) just lay your index finger across 
the High E string.

ALL THIS TALK
(The Smiler EP)

(Intro)    C    E|-3--------0-----0-      G     E|----------3----
                B|----1--1-----1----            B|-0--0--0-----3-
                G|------------------            G|---------------   x 2
                D|------------------            D|---------------
                A|------------------            A|---------------
                E|------------------            E|---------------

	   F            G(bar)      C           Am          F           G
(Riff1) E|-----------------------------3--0--------0----------------------
        B|-------1------------3-----1--------1--------1-----------1-------
        G|----2-----2------4-----4--------------2--------2-----2-----2--0-
        D|-3------------5-----------------------------------3-------------
        A|----------------------------------------------------------------
        E|----------------------------------------------------------------

(V1)	C		 G  
	  Gotta get away   Get out of here
	C		 G
	  Gotta get away   Get out of here
	[Riff1]
	You always seem to say you know what's best for me, free-e

(Ch1)   C                  Csus(?) C        Csus(?)  E|-X-|---|---
        All this talk, you talk so much              B|-X-|---|---
        [Riff2]                                      G|---|---|---
        I have really had enough                     D|---|-X-|---
                                                     A|---|---|-X-
                                                     E|X
        (Riff2) e|------------------
                B|-1----0^1^0--1--0-
                G|------------------
                D|------------------
                A|------------------
                E|------------------

	C              Csus(?)     C
	All this talk, you talk so much
	[Riff2]
	I have really had enough
	[Riff1]
	Anything I ask for I never seem to see, free
	N.C.         C          (N.C. = no chord)
	I'm gonna be free

[Intro]

[Verse1]

(Ch2)	All this talk, you talk so much
	I have really had enough
	All this talk you talk so much
	I have really had enough
	Anything I hope for I never seem to see
	Free, I'm gonna be free

[Intro]

	C  Csus(?)  C  [Riff2]    x 2

[Riff1]

[Verse1]

	All this talk, you talk so much    }  x 3
	I have really had enough           } 
	All this talk, you talk so much
	F		 G	   C
	How I wish you'd just shut up!

---

Don't Go In The Water


Don't Go In The Water
(Tingles EP)

(Intro)	E 

(V1)	E                                        (accent high strings)
	Me and my girl were thinking of what to do
	E
	She said: let's go swimming
	      A
	So we walked down to the shore
               A
	And we watched the waves come in
          E
	I didn't know then, now, what I'm telling you

(CH)	B                     C        D          E
	Don't go in the water, because I am so afraid

(V2)	She took all her clothes off, she went swimming
	In the water up to her pretty neck
	Oh I stood on the shore
	And I watched her swim around
	The next thing I knew, she was going down
	(I wish she'd listened to me)

(Chorus)  Oh, I'm so afraid

(Solo)	E (just high strings)////  /////   (x 4)
	
        A  B|-2----   x 2
           G|----2-

        E (just high)////  /////  (x 2)

           B                                C   
        E|----2-----2-----2-----------2--------3-----3-------
        B|-------------------4-----4--------------------5----
        G|-4-----4-----4--------4--------4--5-----5--------5-
        D|---------------------------------------------------
        A|---------------------------------------------------
        E|---------------------------------------------------

           D                    
        E|----5--------5-------
        B|-7-----7--------7----
        G|----------7--------7-      then E chord
        D|---------------------
        A|---------------------
        E|---------------------

(V3)	Well I didn't know what to do, my girlfriend she was drowning
	She was coughing and a-spluttering right in front of my face
	Well I, I cannot swim to save my own life
	But I don't wanna see my girlfriend die
	(I wish she'd listened to me)

(Chorus)  I'm so afraid

(End)	A / /   E  ( x lots - fade out)

---

Tingles


TINGLES
(Tingles EP)

               ---hit these on the 'up' stroke also
              | (very abruptly)
    (Riff)  E|--------------
            B|--------------    
            G|-5--5--5------        
            D|-5--5--5--4\5-
            A|-3--3--3--4\5-
            E|----------2\3-

[Riff]  x 4

(V1)	[Riff]
	The cards are on the table
	[Riff]...etc.
	The tingles in my hands
	I know I'm going to win
	Play my every hand
	The blackjack table, roulette wheel
	Each sin my every vice
	When I meet the dealer 
	Tonight it feels just right

(CH)	C(3rd fret) G(3rd f.)            
	It's in the cards
	    F                [Riff] x 2
	The future is in the cards

(V2)	My heart is feeling strong
	My nerves they feel like steel
	Lights go flash in my eyes
	Ready to spin the wheel
	I hold my breath, I think a song
	I know nothing will go wrong
	I feel my life go round again
	Go round again

[Chorus] x 2

(Solo) E|--------------------------------------------------------------------
       B|--------------------------------------------------------------------
       G|-0--0--0-----------0--0--0--2--2--2--0--0--0-----------0------------
       D|----------3--2--3-----------------------------3--2--3-----3--2--0---
       A|-------------------------------------------------------------------3
       E|--------------------------------------------------------------------
         (times 2)

       E|--------------------------------------------------------------------
       B|--------------------------------------------------------------------
       G|----------------------------0---------------------------------------
       D|-3--3--3--------0--3--3--3-----3--2-----------------------------0--2
       A|----------2--3-----------------------3--3--3--------3--3--3--3------
       E|----------------------------------------------2--3------------------
         (times 2)


	   G    F
	E|-3----1------------
	B|-3----1------------
	G|-4----2------------     [Riff] x 2
	D|-5----3----3--2--0-
	A|-5----3------------
	E|-3----1------------

(V3)	The wheel is spinning round
	Four aces in my hand
	The tingles getting stronger now
	This win will be so grand
	The cards are on the table
	This bluff I call to see
	Nothing beats the hand I hold
	This win was meant to be

[Chorus] x 3

[Solo]  (first two 'staffs' only)

(End) E|---------------
      B|---------------
      G|-5--4--5-------  (times lots..to fade)
      D|-5--4--5---4\5-
      A|-3--2--3---4\5-
      E|-----------2\3-
---


Overdrive


Overdrive

(B-side Saying Goodbye)

Notes: B (Eshape7)
       Abm  466444
       G    355433
       F#m  244222

(Intro) E|------------------------------------------
        B|------------------------------------------
        G|------------------------------------------  x 4
        D|------------------------------------------
        A|-2--2--2--4--4--6--6--7--7--7--7--7--7--7-
        E|-0--0--0--0--0--0--0--0--0--0--0--0--0--0-

(Bit1)  A  E (x 4)

(Bit2)  B  Abm  G  F#m  E

All times three...that's it

---


Saying Goodbye


Saying Goodbye

Note: put capo on fret 2 for this.

Intro)  A  D  E  D  E  (x2)

V1)     A          D              E                  D  E
        Saying goodbye, I will never see you again.
        A           D         E              D       E
        Saying goodbye and I hope we can be friends.
        A            D                E               D   E
        Coz I am so sorry, that it had to end this way.
        A            D              E           D   E
        And I am so sorry, that it had to be today.

CH)     D                       A               E
        Over and over and over I cannot find my feet.
        D                       A                      E
        Over and over and over this loves lost tragedy.

[Intro]

V2)    Saying farewell and you know our friendship
       had been so swell.
       Saying farewell, but I don't want to see
       don't want to see you
       Breaking up is hard enought without you pushing so hard.
       Breaking up is hard enought without you treading on me.
 
[CH]
       Yes !!!!!

M8)     A  B  D  E  Esus^E^Esus  (x2)

V3)     A                B          
        And now you're swearing at me
            D                    E
        And I can't take much more
        A                B
        And now you're swearing again
                 D                 E            
        And I'm walking out the door
        A                 B
        And I'm so sick & tired of it
            D              E
        But I can't get away from it
        A               B
        I'm so sick & tired of it
              D      E          D  C#m  B
        But I can seem to get away from it

V4)     Saying goodbye, I will never see you again.
        Saying goodbye, I don't want to be your friend.
        Coz I am so Happy that it had to end this way.
        And I am so Happy that it had to be today.

[CH]

[Intro]              E    A
        It's So hard Gooobyeeee
---

I Hate The Music


I Hate The Music (with John Paul Young)
(Soundtrack - Occasional Coarse Language)

Note: I've given it in basic chords but it sounds like he actually plays it with
the formations I've shown at the end...and you put a capo on fret #1.  The
string names in the note tabs (such as the intro) are as if there was no
capo.  And the numbers given are relative to the capo.

Intro)	D	E|-------------------------------------------------------
		B|-3.3--3.1.1--1.0.0--0.---------------------------------
		G|----------------------2.2--2.0.0--0.-------------------
		D|------------------------------------4.4--4--3--2--1--0-
		A|-------------------------------------------------------
		E|-------------------------------------------------------

Ch1)	G					C
	I hate the music cos people say I sing my song so well
     D					 G	C   D
	I just can't sing it without you, ooh-ooh
	G				     C
	I hate the music cos every time I hear that melody
     D				     C			G
	It just reminds me of the things we did together
     C			     G  C			  C
	The way we used to be, a day when life was better
     A     B       C  C# D       E     F#  G
	Back in the days   you were with me				

mid riff) E|---------
          B|-3-5-3-1-
          G|									

V1)	Am	    D		 G	   Am		   D		G
	Now on the day that I met you, that day you happened along
	Am	  D	 G		   A		 D			
	Remember me up there on stage, singing it wrong
	Am	   D	    G		 Am	  D		G    (mid riff)
	I saw you looking toward me, right away I could tell
	B		   Em	      A			  D    (intro prog.)
	Made up my mind, oh-oh-oh, and started singing it well (you can tell)

Ch2)	I hate the music cos people say I sing my song in tune
	I just can't sing it without you, ooh-ooh
	I hate the music cos every time I hear that melody
	It just reminds me of the things we did together
	The way we used to be, a day when life was better
	Back in the days you were with me

V2)	Now music brought us together and music tore us apart
	And day and night the sing goes on breaking my heart (Oooh)
	On the radio in the morning and on stage every night
	I tell you girl it's so damn hard to get to sleep at night (every night)

			   G
	I hate the music
			   A
	I hate the music

Ch3)	A					A
	I hate the music but people say I sing my song so well
	E				  A		D		 E
	I just can't sing it without you (oh you know that it's true)
	A					D
	I hate the music cos every time I hear that melody
	E				 A
	I just can't sing it without you (oh you know that's true)
	A					D
	I hate the music cos every time I hear that melody
	E				 A		D      E
	I just can't sing it without you (oh you know I do)
	A
	I hate the music
	A
	I hate the music...(to fade)


	E|--------------------------
	B|--------------------------
G->  	G|-0--2--0--2--0.0--2--0--2-
	D|-0--2--0--2--0.0--2--0--2-
	A|--------------------------
	E|--------------------------

C->	G|-5--7--5--7--5.5--7--5--7-
	D|-5--7--5--7--5.5--7--5--7-

D->	G|-7--9--7--9--7.7--9--7--9-
	D|-7--9--7--9--7.7--9--7--9-

Prog. at end of chorus:
	   A  B  C  C# D    E  F#  G  
	E|----------------------------
	B|----------------------------
	G|-2--4--5--6--7.7--9--11--12-
	D|-2--4--5--6--7.7--9--11--12-
(opt.>) A|-0--2--3--4--5.5--7--9---10-
	E|----------------------------
---

Blame


Blame
(I Hate The Music Single)

by Jebediah. 
Tabbed by Grant Joyce (sjoycegw@alpha1.curtin.edu.au)

Note: The lead in this is pretty rough, because the effects pedal used makes
it hard to figure out how many notes are actually played, but this will
definetly give you an idea on how to play them.

F#5 - 244xxx	D5 - x577xx		B5 - x244xx
C#5 - x466xx	D#5 - x466xx

Intro (Rythm)

  |-C#5--D#5--|-B5--F#5--| x 4

Intro (Lead)

|--------------|--------------|      |--------------------------|------------|
|-9-9-9-9-9-9--|-9-9-9-7-7-7--|      |-9-9-7h9-9-9-7h9-9-9-7h9--|-9-9-9-9-9--|
|--------------|--------------|      |--------------------------|------------|
|--------------|--------------| x 2  |--------------------------|------------|
|--------------|--------------|      |--------------------------|------------|
|--------------|--------------|      |--------------------------|------------|


Verse (Rythm & Lead)

  |-F#5--|-D#5--|-B5--|-B5--| x 2


Chorus (Rythm & Lead)

  |-F#5--D5--|-F#5--D5--|-F#5--D5--|-B5--|


Solo (Rythm)

  Play the intro 4 times and then the verse twice.


Solo (Lead)

|--------------------------------|      |-----7-6---6--------------|
|-9-9-9-9-9-9-9-9-9-9-9-9-9-7-7--|      |-9-9-----9---7-7---7---7--|
|--------------------------------|      |-----------------8---8----|
|--------------------------------| x 2  |--------------------------| x 2
|--------------------------------|      |--------------------------|
|--------------------------------|      |--------------------------|

|-------------6-6-6---------------------------|
|---7-9-9-7h9-------9-7-9-7-9-7---------------|
|-6-----------------------------7-6-7-6-7-6-7-|
|---------------------------------------------| x 2
|---------------------------------------------|
|---------------------------------------------|

---

Soft As Velvet


Soft As Velvet
(Simon Day)

Intro)G  C  D  Dsus  D (x2)

V1)   G          C          D
      As soft as velvet and warm inside
      G           C         D
      I scream in heaven, a place to hide

Ch)   C            D             G
      The world is falling down around my head
      C            D             G
      The world is falling down around my head
      C             D             G     C  D
      Sometimes I'm wishing I was dead

V2)   It feels so soft, but so hard
      Attempting my life without a start

[Chorus]

      Dsus.....
         Shoot...

V3)   It feels so heavenly, I ...   fast
      How long is my life going to last

[Chorus]
---

Getting Away (From This World)


Getting Away (From This World)  RATCAT

(Note:  for verse use - F: E shape barred on 1st fret
                        G: E shape barred on 3rd
                        Bb: A shape barred on 1st
                        C: open or else A shape on 3rd
        for chorus use- F: as for verse
                        Bb: E shape barred on 6th (note *comment)
                        C: as for verse

-------------------------------------------------------------------------------

(T minus 10, 9, 8, 7, 6, we have main engine start, 4, 3, 2, 1...and
liftoff...)

Intro)  F  G  Bb  (x2)

Riff)   E|-----------------------------------------------------------------
        B|-------------10------------------11--------------13--------------
        G|-10--10--12------12------------------10--------------12------10--
        D|---------------------12------------------12--10----------14------
        A|-------------------------13--13----------------------------------
        E|-----------------------------------------------------------------

        E|---------------------------------------------------------------
        B|-------------10------------------11--------------13------------
        G|-10--10--12------12------------------10--------------9^10--9---
        D|---------------------12------------------12--10----------------
        A|-------------------------13--13--------------------------------
        E|---------------------------------------------------------------

        F  G  Bb  (x2)

Verse1)     F             G
        I'm floating high through the sky
        Bb                C                  F
        Past the moon and into a guessing game
                G            Bb                    C
        And I'm thinking how small the world seems now
      F            G          Bb           C
        Things fly by but only consequence seems to pass me by
      F         G         Bb       C
        I am so small and so is my misery

Chorus) F  Bb*                      F
              I'm getting away from this world
        F  Bb*                      F
              I'm trying as hard as I can
        F  Bb*                      F
              I'm getting away from this world
        F  Bb*                        C         (Riff)
              I'm trying as hard as I can
                                                        (* move pinky to hit
                                                        8th fret on hi E
string)

Verse2) This oxygen sends diamonds in my mind
        The missionary screams murder through my blood
        The pirate's treasure seems closer still somehow
        Another galaxy flies by
        I never seem to touch them I wonder why
        I am so small and so is my misery

(Chorus)

(Intro)

(Riff)

Verse3) This nightmare screams in my sleep at night
        A sound sweet poetry in my ear death looms
        Up to greet me, open arms and open wide
        A deep black hole sucks me closer
        And closer until I hit the sun
        I am so small and so is my misery

(Chorus)...finish on F

---

Email tingles@ratcat.mine.nu TiNgLeS Home Page | Ratcat Page